+
- » MUSIC » TAB♪ » Honeyed And Killed » Honeyed And Killed ♪ TAB

「Honeyed And Killed」

甜蜜与杀害

2011-03-18 | LP | Modern Sky | ISRC:CNA651131300
  • 1.
    Kill Your Age
    杀死你的时代
    (05'30'')
    l
    [Kill Your Age]
    -

    那个冰冷的黑夜里
    有我们未知的事件
    铁轮驶过长街
    残存红色的记忆碎片

    他说:你快别
    时代早已瞬息万变
    历史也许会重演
    但青年绝不会再被歼灭

    膨胀的娱乐的世界
    狡猾诡辩的人间
    我早已厌倦
    这时代赐予我的一切

    他说:你快别
    一切早已瞬息万变
    历史不会再重演
    但青年正在杀死周遭的青年

    tender flowers grow in the shade
    娇嫩的花朵在阴影中成长
    tiny neck , big brain
    细细的茎,大大的头
    if you really hate
    如果你真的恨
    kill your age
    杀死你的时代

    tender boys grow in the shade
    娇嫩的孩子在阴影里成长
    tiny neck , big brain
    细细的脖子,大大的脑袋
    if you really hate
    如果你真的恨
    kill your age
    杀死你的时代

    在对这世界认知形成前已被包围
    真实勒死于襁褓前莫须有的所谓
    如果你真的恨那日夜闪耀的光辉
    杀或被杀死在这时代源头的虚伪

    感知的萌芽在强暴中的本能崩溃
    简单的世界被灌以复杂蝶效原为
    如果你真的恨头顶那耀眼的光辉
    杀或被杀死在这时代源头的善伪
    t
    [Kill Your Age]

    INTRODUCTION


    1 = C (root note)
    120 bpm (bit per minute)
    4/4
    --------------------------------------------
    ♩= (1/4bar note) = 1bit
    ♪ = 1/2♩(1/8bar note) = 1/2bit
    ♫ = 2 x 1/2♩=1bit
    -/↓/↑ = 1/2♩(1/8bar note) = 1/2bit
    ♬ = 2 x 1/2 ♪ (1/16bar note) = 1/2bit
    | = bar line  
    Number = Guitar Pad Position = ♪
    (when without appendix mark 
    default value = 1/2bit) 
    -------------------------------------------
    4/4 key=F
    Guitar Chord
    Intro
    E----------------------------------------------------------------
    B----------------------------------------------------------------
    A--------------------0--------------------------------------------
    D---------0--------------0-----------------------------------------
    A-----1--------1------------1-------------------------------------
    E--3--------------------------------------------------------------
    Verse
    E----------------------------------------------------------------
    B----------------------------------------------------------------
    A----------------------------------------------------------------
    D---------0---------------------0------------(x3)---C---D----------------
    A-----1--------------------0-------------------------------------
    E--3----------3---------1----------1---------------------------------
    Chorus
    G F x3 C D
    F/Dm 140bpm S |
  • 2.
    Honeyed And Killed
    蜜杀
    (04'30'')
    l
    [Honeyed And Killed]
    -
    honey,honey
    甜心,甜心
    i hope the world just you and me
    我期望这世界只有我和你
    candy,candy
    糖果,糖果
    i need it so much but it nearly kill me
    我如此需要你,但你几乎杀死了我
    love me,hate me
    爱我,恨我
    if you really love me please shoot me
    如果真的爱我请杀了我
    jesus,jesus
    上帝,上帝
    please send me your choice
    请告诉我你的选择
    t
    [Honeyed And Killed]

    INTRODUCTION


    1 = C (root note)
    120 bpm (bit per minute)
    4/4
    --------------------------------------------
    ♩= (1/4bar note) = 1bit
    ♪ = 1/2♩(1/8bar note) = 1/2bit
    ♫ = 2 x 1/2♩=1bit
    -/↓/↑ = 1/2♩(1/8bar note) = 1/2bit
    ♬ = 2 x 1/2 ♪ (1/16bar note) = 1/2bit
    | = bar line  
    Number = Guitar Pad Position = ♪
    (when without appendix mark 
    default value = 1/2bit) 
    -------------------------------------------
    4/4 key=D
    Guitar Chord
    Verse  Chorus :D A
    Intro
    E-----------------------0----------------------------------------
    B------------10-----------10--------------------------------0--------
    A-------11-------11-------------(x2)----------10---------------10-----(x2)--
    D-------0---------------------------------12---------12--------------
    A------------------------------------------0-------------------
    E----------------------------------------------------------------

    SOLO
    E---------------------------------------------------------------
    B------------9--11--14--11-11-11-9-9-11--14-14-------------------------
    A-------11--------------------------------------------------9-11/14-11----------------------------
    D-------0---------------------------------------------------------------0---------------------
    A-------------------------------------------------------------
    E----------------------------------------------------------------
    A/#Fm 140bpm S
  • 3.